ISO-10303-21;
HEADER;
FILE_DESCRIPTION(('CATIA V5 STEP Exchange'),'2;1');

FILE_NAME('\\\\stisrv.epfl.ch\\sti-sgm\\sgm-ens\\soubiell\\Enseignement\\ME-101-106 - Construction M\X2\00E9\X0\canique I\\1. Supports de cours\\SW2\\Fichiers sources et illustrations\\PIECE E.stp','2023-10-16T12:17:25+00:00',('none'),('none'),'CATIA Unofficial Packaging Version SP3','CATIA V5 STEP AP203','none');

FILE_SCHEMA(('CONFIG_CONTROL_DESIGN'));

ENDSEC;
DATA;
#5=PRODUCT('PIECE E','','',(#2)) ;
#1=APPLICATION_CONTEXT('configuration controlled 3D design of mechanical parts and assemblies') ;
#14=PRODUCT_DEFINITION('',' ',#6,#3) ;
#16=SECURITY_CLASSIFICATION(' ',' ',#15) ;
#15=SECURITY_CLASSIFICATION_LEVEL('unclassified') ;
#46=CARTESIAN_POINT(' ',(0.,0.,0.)) ;
#51=CARTESIAN_POINT('Axis2P3D Location',(0.,100.,400.)) ;
#56=CARTESIAN_POINT('Line Origine',(0.,100.,125.)) ;
#60=CARTESIAN_POINT('Vertex',(0.,100.,250.)) ;
#62=CARTESIAN_POINT('Vertex',(0.,100.,-5.68434188608E-014)) ;
#65=CARTESIAN_POINT('Line Origine',(50.,100.,-5.68434188608E-014)) ;
#69=CARTESIAN_POINT('Vertex',(100.,100.,-1.13686837722E-013)) ;
#72=CARTESIAN_POINT('Line Origine',(100.,100.,125.)) ;
#76=CARTESIAN_POINT('Vertex',(100.,100.,250.)) ;
#79=CARTESIAN_POINT('Line Origine',(50.,100.,250.)) ;
#91=CARTESIAN_POINT('Axis2P3D Location',(350.,100.,250.)) ;
#96=CARTESIAN_POINT('Line Origine',(225.,100.,250.)) ;
#100=CARTESIAN_POINT('Vertex',(350.,100.,250.)) ;
#103=CARTESIAN_POINT('Line Origine',(350.,125.,200.)) ;
#107=CARTESIAN_POINT('Vertex',(350.,150.,150.)) ;
#110=CARTESIAN_POINT('Line Origine',(175.,150.,150.)) ;
#114=CARTESIAN_POINT('Vertex',(-5.68434188608E-014,150.,150.)) ;
#117=CARTESIAN_POINT('Line Origine',(0.,125.,200.)) ;
#130=CARTESIAN_POINT('Axis2P3D Location',(0.,0.,0.)) ;
#135=CARTESIAN_POINT('Line Origine',(350.,125.,0.)) ;
#139=CARTESIAN_POINT('Vertex',(350.,0.,0.)) ;
#141=CARTESIAN_POINT('Vertex',(350.,250.,0.)) ;
#144=CARTESIAN_POINT('Line Origine',(225.,0.,0.)) ;
#148=CARTESIAN_POINT('Vertex',(100.,0.,-5.68434188608E-014)) ;
#151=CARTESIAN_POINT('Line Origine',(100.,50.,0.)) ;
#156=CARTESIAN_POINT('Line Origine',(0.,225.,0.)) ;
#160=CARTESIAN_POINT('Vertex',(0.,350.,0.)) ;
#163=CARTESIAN_POINT('Line Origine',(100.,350.,0.)) ;
#167=CARTESIAN_POINT('Vertex',(200.,350.,0.)) ;
#170=CARTESIAN_POINT('Line Origine',(200.,300.,0.)) ;
#174=CARTESIAN_POINT('Vertex',(200.,250.,-5.68434188608E-014)) ;
#177=CARTESIAN_POINT('Line Origine',(275.,250.,0.)) ;
#193=CARTESIAN_POINT('Axis2P3D Location',(0.,350.,0.)) ;
#198=CARTESIAN_POINT('Line Origine',(0.,200.,150.)) ;
#202=CARTESIAN_POINT('Vertex',(-5.68434188608E-014,250.,150.)) ;
#205=CARTESIAN_POINT('Line Origine',(0.,250.,275.)) ;
#209=CARTESIAN_POINT('Vertex',(-5.68434188608E-014,250.,400.)) ;
#212=CARTESIAN_POINT('Line Origine',(0.,300.,400.)) ;
#216=CARTESIAN_POINT('Vertex',(0.,350.,400.)) ;
#219=CARTESIAN_POINT('Line Origine',(0.,350.,200.)) ;
#234=CARTESIAN_POINT('Axis2P3D Location',(350.,0.,0.)) ;
#239=CARTESIAN_POINT('Line Origine',(350.,200.,150.)) ;
#243=CARTESIAN_POINT('Vertex',(350.,250.,150.)) ;
#246=CARTESIAN_POINT('Line Origine',(350.,50.,250.)) ;
#250=CARTESIAN_POINT('Vertex',(350.,0.,250.)) ;
#253=CARTESIAN_POINT('Line Origine',(350.,0.,125.)) ;
#258=CARTESIAN_POINT('Line Origine',(350.,250.,75.)) ;
#272=CARTESIAN_POINT('Axis2P3D Location',(350.,250.,150.)) ;
#277=CARTESIAN_POINT('Line Origine',(275.,250.,150.)) ;
#281=CARTESIAN_POINT('Vertex',(200.,250.,150.)) ;
#284=CARTESIAN_POINT('Line Origine',(100.,250.,150.)) ;
#297=CARTESIAN_POINT('Axis2P3D Location',(200.,250.,400.)) ;
#302=CARTESIAN_POINT('Line Origine',(200.,350.,200.)) ;
#306=CARTESIAN_POINT('Vertex',(200.,350.,400.)) ;
#309=CARTESIAN_POINT('Line Origine',(200.,300.,400.)) ;
#313=CARTESIAN_POINT('Vertex',(200.,250.,400.)) ;
#316=CARTESIAN_POINT('Line Origine',(200.,250.,275.)) ;
#321=CARTESIAN_POINT('Line Origine',(200.,250.,75.)) ;
#334=CARTESIAN_POINT('Axis2P3D Location',(0.,0.,400.)) ;
#339=CARTESIAN_POINT('Line Origine',(100.,350.,400.)) ;
#344=CARTESIAN_POINT('Line Origine',(100.,250.,400.)) ;
#356=CARTESIAN_POINT('Axis2P3D Location',(350.,250.,400.)) ;
#368=CARTESIAN_POINT('Axis2P3D Location',(0.,0.,0.)) ;
#373=CARTESIAN_POINT('Line Origine',(225.,0.,250.)) ;
#377=CARTESIAN_POINT('Vertex',(100.,0.,250.)) ;
#380=CARTESIAN_POINT('Line Origine',(100.,0.,125.)) ;
#392=CARTESIAN_POINT('Axis2P3D Location',(350.,350.,0.)) ;
#411=CARTESIAN_POINT('Axis2P3D Location',(350.,100.,250.)) ;
#416=CARTESIAN_POINT('Line Origine',(100.,50.,250.)) ;
#428=CARTESIAN_POINT('Axis2P3D Location',(100.,0.,400.)) ;
#52=DIRECTION('Axis2P3D Direction',(-0.,1.,0.)) ;
#53=DIRECTION('Axis2P3D XDirection',(1.,0.,0.)) ;
#57=DIRECTION('Vector Direction',(0.,0.,-1.)) ;
#66=DIRECTION('Vector Direction',(1.,0.,0.)) ;
#73=DIRECTION('Vector Direction',(0.,0.,-1.)) ;
#80=DIRECTION('Vector Direction',(1.,0.,0.)) ;
#92=DIRECTION('Axis2P3D Direction',(0.,0.894427191,0.4472135955)) ;
#93=DIRECTION('Axis2P3D XDirection',(0.,0.4472135955,-0.894427191)) ;
#97=DIRECTION('Vector Direction',(-1.,0.,0.)) ;
#104=DIRECTION('Vector Direction',(0.,0.4472135955,-0.894427191)) ;
#111=DIRECTION('Vector Direction',(-1.,0.,0.)) ;
#118=DIRECTION('Vector Direction',(0.,0.4472135955,-0.894427191)) ;
#131=DIRECTION('Axis2P3D Direction',(0.,0.,1.)) ;
#132=DIRECTION('Axis2P3D XDirection',(1.,0.,0.)) ;
#136=DIRECTION('Vector Direction',(0.,1.,0.)) ;
#145=DIRECTION('Vector Direction',(1.,0.,0.)) ;
#152=DIRECTION('Vector Direction',(0.,1.,0.)) ;
#157=DIRECTION('Vector Direction',(0.,-1.,0.)) ;
#164=DIRECTION('Vector Direction',(-1.,0.,0.)) ;
#171=DIRECTION('Vector Direction',(0.,-1.,0.)) ;
#178=DIRECTION('Vector Direction',(-1.,0.,0.)) ;
#194=DIRECTION('Axis2P3D Direction',(-1.,0.,0.)) ;
#195=DIRECTION('Axis2P3D XDirection',(0.,-1.,0.)) ;
#199=DIRECTION('Vector Direction',(0.,-1.,0.)) ;
#206=DIRECTION('Vector Direction',(0.,0.,-1.)) ;
#213=DIRECTION('Vector Direction',(0.,-1.,0.)) ;
#220=DIRECTION('Vector Direction',(0.,0.,1.)) ;
#235=DIRECTION('Axis2P3D Direction',(1.,0.,0.)) ;
#236=DIRECTION('Axis2P3D XDirection',(0.,1.,0.)) ;
#240=DIRECTION('Vector Direction',(0.,-1.,0.)) ;
#247=DIRECTION('Vector Direction',(0.,-1.,5.68434188608E-016)) ;
#254=DIRECTION('Vector Direction',(0.,0.,1.)) ;
#259=DIRECTION('Vector Direction',(0.,0.,-1.)) ;
#273=DIRECTION('Axis2P3D Direction',(-0.,-0.,-1.)) ;
#274=DIRECTION('Axis2P3D XDirection',(0.,-1.,0.)) ;
#278=DIRECTION('Vector Direction',(-1.,0.,0.)) ;
#285=DIRECTION('Vector Direction',(-1.,0.,0.)) ;
#298=DIRECTION('Axis2P3D Direction',(-1.,0.,0.)) ;
#299=DIRECTION('Axis2P3D XDirection',(0.,1.,0.)) ;
#303=DIRECTION('Vector Direction',(0.,0.,-1.)) ;
#310=DIRECTION('Vector Direction',(0.,1.,0.)) ;
#317=DIRECTION('Vector Direction',(0.,0.,-1.)) ;
#322=DIRECTION('Vector Direction',(0.,0.,-1.)) ;
#335=DIRECTION('Axis2P3D Direction',(0.,0.,1.)) ;
#336=DIRECTION('Axis2P3D XDirection',(1.,0.,0.)) ;
#340=DIRECTION('Vector Direction',(-1.,0.,0.)) ;
#345=DIRECTION('Vector Direction',(-1.,0.,0.)) ;
#357=DIRECTION('Axis2P3D Direction',(0.,1.,0.)) ;
#358=DIRECTION('Axis2P3D XDirection',(0.,0.,-1.)) ;
#369=DIRECTION('Axis2P3D Direction',(0.,-1.,0.)) ;
#370=DIRECTION('Axis2P3D XDirection',(1.,0.,0.)) ;
#374=DIRECTION('Vector Direction',(-1.,0.,0.)) ;
#381=DIRECTION('Vector Direction',(0.,0.,-1.)) ;
#393=DIRECTION('Axis2P3D Direction',(0.,1.,-0.)) ;
#394=DIRECTION('Axis2P3D XDirection',(-1.,0.,0.)) ;
#412=DIRECTION('Axis2P3D Direction',(-0.,-5.68434188608E-016,-1.)) ;
#413=DIRECTION('Axis2P3D XDirection',(0.,-1.,5.68434188608E-016)) ;
#417=DIRECTION('Vector Direction',(0.,1.,-5.68434188608E-016)) ;
#429=DIRECTION('Axis2P3D Direction',(-1.,0.,0.)) ;
#430=DIRECTION('Axis2P3D XDirection',(0.,1.,0.)) ;
#47=AXIS2_PLACEMENT_3D(' ',#46,$,$) ;
#54=AXIS2_PLACEMENT_3D('Plane Axis2P3D',#51,#52,#53) ;
#94=AXIS2_PLACEMENT_3D('Plane Axis2P3D',#91,#92,#93) ;
#133=AXIS2_PLACEMENT_3D('Plane Axis2P3D',#130,#131,#132) ;
#196=AXIS2_PLACEMENT_3D('Plane Axis2P3D',#193,#194,#195) ;
#237=AXIS2_PLACEMENT_3D('Plane Axis2P3D',#234,#235,#236) ;
#275=AXIS2_PLACEMENT_3D('Plane Axis2P3D',#272,#273,#274) ;
#300=AXIS2_PLACEMENT_3D('Plane Axis2P3D',#297,#298,#299) ;
#337=AXIS2_PLACEMENT_3D('Plane Axis2P3D',#334,#335,#336) ;
#359=AXIS2_PLACEMENT_3D('Plane Axis2P3D',#356,#357,#358) ;
#371=AXIS2_PLACEMENT_3D('Plane Axis2P3D',#368,#369,#370) ;
#395=AXIS2_PLACEMENT_3D('Plane Axis2P3D',#392,#393,#394) ;
#414=AXIS2_PLACEMENT_3D('Plane Axis2P3D',#411,#412,#413) ;
#431=AXIS2_PLACEMENT_3D('Plane Axis2P3D',#428,#429,#430) ;
#40=PRODUCT_DEFINITION_SHAPE(' ',' ',#14) ;
#31=APPROVAL_PERSON_ORGANIZATION(#25,#21,#19) ;
#25=PERSON_AND_ORGANIZATION(#22,#23) ;
#22=PERSON(' ',' ',' ',$,$,$) ;
#23=ORGANIZATION(' ',' ',' ') ;
#21=APPROVAL(#20,' ') ;
#20=APPROVAL_STATUS('not_yet_approved') ;
#19=APPROVAL_ROLE('APPROVER') ;
#13=DATE_AND_TIME(#11,#12) ;
#12=LOCAL_TIME(14,17,25.,#10) ;
#10=COORDINATED_UNIVERSAL_TIME_OFFSET(0,0,.AHEAD.) ;
#85=ORIENTED_EDGE('',*,*,#64,.T.) ;
#86=ORIENTED_EDGE('',*,*,#71,.T.) ;
#87=ORIENTED_EDGE('',*,*,#78,.F.) ;
#88=ORIENTED_EDGE('',*,*,#83,.T.) ;
#123=ORIENTED_EDGE('',*,*,#83,.F.) ;
#124=ORIENTED_EDGE('',*,*,#102,.F.) ;
#125=ORIENTED_EDGE('',*,*,#109,.T.) ;
#126=ORIENTED_EDGE('',*,*,#116,.T.) ;
#127=ORIENTED_EDGE('',*,*,#121,.F.) ;
#183=ORIENTED_EDGE('',*,*,#143,.F.) ;
#184=ORIENTED_EDGE('',*,*,#150,.F.) ;
#185=ORIENTED_EDGE('',*,*,#155,.T.) ;
#186=ORIENTED_EDGE('',*,*,#71,.F.) ;
#187=ORIENTED_EDGE('',*,*,#162,.F.) ;
#188=ORIENTED_EDGE('',*,*,#169,.F.) ;
#189=ORIENTED_EDGE('',*,*,#176,.T.) ;
#190=ORIENTED_EDGE('',*,*,#181,.F.) ;
#225=ORIENTED_EDGE('',*,*,#121,.T.) ;
#226=ORIENTED_EDGE('',*,*,#204,.F.) ;
#227=ORIENTED_EDGE('',*,*,#211,.F.) ;
#228=ORIENTED_EDGE('',*,*,#218,.F.) ;
#229=ORIENTED_EDGE('',*,*,#223,.F.) ;
#230=ORIENTED_EDGE('',*,*,#162,.T.) ;
#231=ORIENTED_EDGE('',*,*,#64,.F.) ;
#264=ORIENTED_EDGE('',*,*,#245,.F.) ;
#265=ORIENTED_EDGE('',*,*,#109,.F.) ;
#266=ORIENTED_EDGE('',*,*,#252,.F.) ;
#267=ORIENTED_EDGE('',*,*,#257,.F.) ;
#268=ORIENTED_EDGE('',*,*,#143,.T.) ;
#269=ORIENTED_EDGE('',*,*,#262,.F.) ;
#290=ORIENTED_EDGE('',*,*,#204,.T.) ;
#291=ORIENTED_EDGE('',*,*,#116,.F.) ;
#292=ORIENTED_EDGE('',*,*,#245,.T.) ;
#293=ORIENTED_EDGE('',*,*,#283,.T.) ;
#294=ORIENTED_EDGE('',*,*,#288,.T.) ;
#327=ORIENTED_EDGE('',*,*,#176,.F.) ;
#328=ORIENTED_EDGE('',*,*,#308,.F.) ;
#329=ORIENTED_EDGE('',*,*,#315,.T.) ;
#330=ORIENTED_EDGE('',*,*,#320,.T.) ;
#331=ORIENTED_EDGE('',*,*,#325,.T.) ;
#350=ORIENTED_EDGE('',*,*,#343,.T.) ;
#351=ORIENTED_EDGE('',*,*,#218,.T.) ;
#352=ORIENTED_EDGE('',*,*,#348,.F.) ;
#353=ORIENTED_EDGE('',*,*,#315,.F.) ;
#362=ORIENTED_EDGE('',*,*,#320,.F.) ;
#363=ORIENTED_EDGE('',*,*,#348,.T.) ;
#364=ORIENTED_EDGE('',*,*,#211,.T.) ;
#365=ORIENTED_EDGE('',*,*,#288,.F.) ;
#386=ORIENTED_EDGE('',*,*,#150,.T.) ;
#387=ORIENTED_EDGE('',*,*,#257,.T.) ;
#388=ORIENTED_EDGE('',*,*,#379,.T.) ;
#389=ORIENTED_EDGE('',*,*,#384,.T.) ;
#398=ORIENTED_EDGE('',*,*,#169,.T.) ;
#399=ORIENTED_EDGE('',*,*,#223,.T.) ;
#400=ORIENTED_EDGE('',*,*,#343,.F.) ;
#401=ORIENTED_EDGE('',*,*,#308,.T.) ;
#405=ORIENTED_EDGE('',*,*,#283,.F.) ;
#406=ORIENTED_EDGE('',*,*,#262,.T.) ;
#407=ORIENTED_EDGE('',*,*,#181,.T.) ;
#408=ORIENTED_EDGE('',*,*,#325,.F.) ;
#422=ORIENTED_EDGE('',*,*,#420,.F.) ;
#423=ORIENTED_EDGE('',*,*,#379,.F.) ;
#424=ORIENTED_EDGE('',*,*,#252,.T.) ;
#425=ORIENTED_EDGE('',*,*,#102,.T.) ;
#434=ORIENTED_EDGE('',*,*,#420,.T.) ;
#435=ORIENTED_EDGE('',*,*,#78,.T.) ;
#436=ORIENTED_EDGE('',*,*,#155,.F.) ;
#437=ORIENTED_EDGE('',*,*,#384,.F.) ;
#50=CLOSED_SHELL('Closed Shell',(#90,#129,#192,#233,#271,#296,#333,#355,#367,#391,#403,#410,#427,#439)) ;
#58=VECTOR('Line Direction',#57,1.) ;
#67=VECTOR('Line Direction',#66,1.) ;
#74=VECTOR('Line Direction',#73,1.) ;
#81=VECTOR('Line Direction',#80,1.) ;
#98=VECTOR('Line Direction',#97,1.) ;
#105=VECTOR('Line Direction',#104,1.) ;
#112=VECTOR('Line Direction',#111,1.) ;
#119=VECTOR('Line Direction',#118,1.) ;
#137=VECTOR('Line Direction',#136,1.) ;
#146=VECTOR('Line Direction',#145,1.) ;
#153=VECTOR('Line Direction',#152,1.) ;
#158=VECTOR('Line Direction',#157,1.) ;
#165=VECTOR('Line Direction',#164,1.) ;
#172=VECTOR('Line Direction',#171,1.) ;
#179=VECTOR('Line Direction',#178,1.) ;
#200=VECTOR('Line Direction',#199,1.) ;
#207=VECTOR('Line Direction',#206,1.) ;
#214=VECTOR('Line Direction',#213,1.) ;
#221=VECTOR('Line Direction',#220,1.) ;
#241=VECTOR('Line Direction',#240,1.) ;
#248=VECTOR('Line Direction',#247,1.) ;
#255=VECTOR('Line Direction',#254,1.) ;
#260=VECTOR('Line Direction',#259,1.) ;
#279=VECTOR('Line Direction',#278,1.) ;
#286=VECTOR('Line Direction',#285,1.) ;
#304=VECTOR('Line Direction',#303,1.) ;
#311=VECTOR('Line Direction',#310,1.) ;
#318=VECTOR('Line Direction',#317,1.) ;
#323=VECTOR('Line Direction',#322,1.) ;
#341=VECTOR('Line Direction',#340,1.) ;
#346=VECTOR('Line Direction',#345,1.) ;
#375=VECTOR('Line Direction',#374,1.) ;
#382=VECTOR('Line Direction',#381,1.) ;
#418=VECTOR('Line Direction',#417,1.) ;
#441=ADVANCED_BREP_SHAPE_REPRESENTATION('NONE',(#440),#45) ;
#48=SHAPE_REPRESENTATION(' ',(#47),#45) ;
#90=ADVANCED_FACE('Corps principal',(#89),#55,.F.) ;
#129=ADVANCED_FACE('Corps principal',(#128),#95,.T.) ;
#192=ADVANCED_FACE('Corps principal',(#191),#134,.F.) ;
#233=ADVANCED_FACE('Corps principal',(#232),#197,.T.) ;
#271=ADVANCED_FACE('Corps principal',(#270),#238,.T.) ;
#296=ADVANCED_FACE('Corps principal',(#295),#276,.F.) ;
#333=ADVANCED_FACE('Corps principal',(#332),#301,.F.) ;
#355=ADVANCED_FACE('Corps principal',(#354),#338,.T.) ;
#367=ADVANCED_FACE('Corps principal',(#366),#360,.F.) ;
#391=ADVANCED_FACE('Corps principal',(#390),#372,.T.) ;
#403=ADVANCED_FACE('Corps principal',(#402),#396,.T.) ;
#410=ADVANCED_FACE('Corps principal',(#409),#360,.T.) ;
#427=ADVANCED_FACE('Corps principal',(#426),#415,.F.) ;
#439=ADVANCED_FACE('Corps principal',(#438),#432,.T.) ;
#4=APPLICATION_PROTOCOL_DEFINITION('international standard','config_control_design',1994,#1) ;
#32=APPROVAL_DATE_TIME(#13,#21) ;
#440=MANIFOLD_SOLID_BREP('Corps principal',#50) ;
#11=CALENDAR_DATE(2023,16,10) ;
#30=CC_DESIGN_APPROVAL(#21,(#16,#6,#14)) ;
#18=CC_DESIGN_DATE_AND_TIME_ASSIGNMENT(#13,#17,(#16)) ;
#29=CC_DESIGN_DATE_AND_TIME_ASSIGNMENT(#13,#28,(#14)) ;
#17=DATE_TIME_ROLE('classification_date') ;
#28=DATE_TIME_ROLE('creation_date') ;
#27=CC_DESIGN_PERSON_AND_ORGANIZATION_ASSIGNMENT(#25,#26,(#16)) ;
#33=CC_DESIGN_PERSON_AND_ORGANIZATION_ASSIGNMENT(#25,#34,(#6)) ;
#35=CC_DESIGN_PERSON_AND_ORGANIZATION_ASSIGNMENT(#25,#36,(#6,#14)) ;
#37=CC_DESIGN_PERSON_AND_ORGANIZATION_ASSIGNMENT(#25,#38,(#5)) ;
#26=PERSON_AND_ORGANIZATION_ROLE('classification_officer') ;
#34=PERSON_AND_ORGANIZATION_ROLE('design_supplier') ;
#36=PERSON_AND_ORGANIZATION_ROLE('creator') ;
#38=PERSON_AND_ORGANIZATION_ROLE('design_owner') ;
#39=CC_DESIGN_SECURITY_CLASSIFICATION(#16,(#6)) ;
#442=SHAPE_REPRESENTATION_RELATIONSHIP(' ',' ',#48,#441) ;
#3=DESIGN_CONTEXT(' ',#1,'design') ;
#64=EDGE_CURVE('',#61,#63,#59,.T.) ;
#71=EDGE_CURVE('',#63,#70,#68,.T.) ;
#78=EDGE_CURVE('',#77,#70,#75,.T.) ;
#83=EDGE_CURVE('',#77,#61,#82,.F.) ;
#102=EDGE_CURVE('',#101,#77,#99,.T.) ;
#109=EDGE_CURVE('',#101,#108,#106,.T.) ;
#116=EDGE_CURVE('',#108,#115,#113,.T.) ;
#121=EDGE_CURVE('',#61,#115,#120,.T.) ;
#143=EDGE_CURVE('',#140,#142,#138,.T.) ;
#150=EDGE_CURVE('',#149,#140,#147,.T.) ;
#155=EDGE_CURVE('',#149,#70,#154,.T.) ;
#162=EDGE_CURVE('',#161,#63,#159,.T.) ;
#169=EDGE_CURVE('',#168,#161,#166,.T.) ;
#176=EDGE_CURVE('',#168,#175,#173,.T.) ;
#181=EDGE_CURVE('',#142,#175,#180,.T.) ;
#204=EDGE_CURVE('',#203,#115,#201,.T.) ;
#211=EDGE_CURVE('',#210,#203,#208,.T.) ;
#218=EDGE_CURVE('',#217,#210,#215,.T.) ;
#223=EDGE_CURVE('',#161,#217,#222,.T.) ;
#245=EDGE_CURVE('',#108,#244,#242,.F.) ;
#252=EDGE_CURVE('',#251,#101,#249,.F.) ;
#257=EDGE_CURVE('',#140,#251,#256,.T.) ;
#262=EDGE_CURVE('',#244,#142,#261,.T.) ;
#283=EDGE_CURVE('',#244,#282,#280,.T.) ;
#288=EDGE_CURVE('',#282,#203,#287,.T.) ;
#308=EDGE_CURVE('',#307,#168,#305,.T.) ;
#315=EDGE_CURVE('',#307,#314,#312,.F.) ;
#320=EDGE_CURVE('',#314,#282,#319,.T.) ;
#325=EDGE_CURVE('',#282,#175,#324,.T.) ;
#343=EDGE_CURVE('',#307,#217,#342,.T.) ;
#348=EDGE_CURVE('',#314,#210,#347,.T.) ;
#379=EDGE_CURVE('',#251,#378,#376,.T.) ;
#384=EDGE_CURVE('',#378,#149,#383,.T.) ;
#420=EDGE_CURVE('',#378,#77,#419,.T.) ;
#84=EDGE_LOOP('',(#85,#86,#87,#88)) ;
#122=EDGE_LOOP('',(#123,#124,#125,#126,#127)) ;
#182=EDGE_LOOP('',(#183,#184,#185,#186,#187,#188,#189,#190)) ;
#224=EDGE_LOOP('',(#225,#226,#227,#228,#229,#230,#231)) ;
#263=EDGE_LOOP('',(#264,#265,#266,#267,#268,#269)) ;
#289=EDGE_LOOP('',(#290,#291,#292,#293,#294)) ;
#326=EDGE_LOOP('',(#327,#328,#329,#330,#331)) ;
#349=EDGE_LOOP('',(#350,#351,#352,#353)) ;
#361=EDGE_LOOP('',(#362,#363,#364,#365)) ;
#385=EDGE_LOOP('',(#386,#387,#388,#389)) ;
#397=EDGE_LOOP('',(#398,#399,#400,#401)) ;
#404=EDGE_LOOP('',(#405,#406,#407,#408)) ;
#421=EDGE_LOOP('',(#422,#423,#424,#425)) ;
#433=EDGE_LOOP('',(#434,#435,#436,#437)) ;
#89=FACE_OUTER_BOUND('',#84,.T.) ;
#128=FACE_OUTER_BOUND('',#122,.T.) ;
#191=FACE_OUTER_BOUND('',#182,.T.) ;
#232=FACE_OUTER_BOUND('',#224,.T.) ;
#270=FACE_OUTER_BOUND('',#263,.T.) ;
#295=FACE_OUTER_BOUND('',#289,.T.) ;
#332=FACE_OUTER_BOUND('',#326,.T.) ;
#354=FACE_OUTER_BOUND('',#349,.T.) ;
#366=FACE_OUTER_BOUND('',#361,.T.) ;
#390=FACE_OUTER_BOUND('',#385,.T.) ;
#402=FACE_OUTER_BOUND('',#397,.T.) ;
#409=FACE_OUTER_BOUND('',#404,.T.) ;
#426=FACE_OUTER_BOUND('',#421,.T.) ;
#438=FACE_OUTER_BOUND('',#433,.T.) ;
#44=UNCERTAINTY_MEASURE_WITH_UNIT(LENGTH_MEASURE(0.005),#41,'distance_accuracy_value','CONFUSED CURVE UNCERTAINTY') ;
#59=LINE('Line',#56,#58) ;
#68=LINE('Line',#65,#67) ;
#75=LINE('Line',#72,#74) ;
#82=LINE('Line',#79,#81) ;
#99=LINE('Line',#96,#98) ;
#106=LINE('Line',#103,#105) ;
#113=LINE('Line',#110,#112) ;
#120=LINE('Line',#117,#119) ;
#138=LINE('Line',#135,#137) ;
#147=LINE('Line',#144,#146) ;
#154=LINE('Line',#151,#153) ;
#159=LINE('Line',#156,#158) ;
#166=LINE('Line',#163,#165) ;
#173=LINE('Line',#170,#172) ;
#180=LINE('Line',#177,#179) ;
#201=LINE('Line',#198,#200) ;
#208=LINE('Line',#205,#207) ;
#215=LINE('Line',#212,#214) ;
#222=LINE('Line',#219,#221) ;
#242=LINE('Line',#239,#241) ;
#249=LINE('Line',#246,#248) ;
#256=LINE('Line',#253,#255) ;
#261=LINE('Line',#258,#260) ;
#280=LINE('Line',#277,#279) ;
#287=LINE('Line',#284,#286) ;
#305=LINE('Line',#302,#304) ;
#312=LINE('Line',#309,#311) ;
#319=LINE('Line',#316,#318) ;
#324=LINE('Line',#321,#323) ;
#342=LINE('Line',#339,#341) ;
#347=LINE('Line',#344,#346) ;
#376=LINE('Line',#373,#375) ;
#383=LINE('Line',#380,#382) ;
#419=LINE('Line',#416,#418) ;
#2=MECHANICAL_CONTEXT(' ',#1,'mechanical') ;
#24=PERSONAL_ADDRESS(' ',' ',' ',' ',' ',' ',' ',' ',' ',' ',' ',' ',(#22),' ') ;
#55=PLANE('',#54) ;
#95=PLANE('',#94) ;
#134=PLANE('',#133) ;
#197=PLANE('',#196) ;
#238=PLANE('',#237) ;
#276=PLANE('',#275) ;
#301=PLANE('',#300) ;
#338=PLANE('',#337) ;
#360=PLANE('',#359) ;
#372=PLANE('',#371) ;
#396=PLANE('',#395) ;
#415=PLANE('',#414) ;
#432=PLANE('',#431) ;
#7=PRODUCT_CATEGORY('part',$) ;
#9=PRODUCT_CATEGORY_RELATIONSHIP(' ',' ',#7,#8) ;
#6=PRODUCT_DEFINITION_FORMATION_WITH_SPECIFIED_SOURCE('',' ',#5,.NOT_KNOWN.) ;
#8=PRODUCT_RELATED_PRODUCT_CATEGORY('detail',$,(#5)) ;
#49=SHAPE_DEFINITION_REPRESENTATION(#40,#48) ;
#61=VERTEX_POINT('',#60) ;
#63=VERTEX_POINT('',#62) ;
#70=VERTEX_POINT('',#69) ;
#77=VERTEX_POINT('',#76) ;
#101=VERTEX_POINT('',#100) ;
#108=VERTEX_POINT('',#107) ;
#115=VERTEX_POINT('',#114) ;
#140=VERTEX_POINT('',#139) ;
#142=VERTEX_POINT('',#141) ;
#149=VERTEX_POINT('',#148) ;
#161=VERTEX_POINT('',#160) ;
#168=VERTEX_POINT('',#167) ;
#175=VERTEX_POINT('',#174) ;
#203=VERTEX_POINT('',#202) ;
#210=VERTEX_POINT('',#209) ;
#217=VERTEX_POINT('',#216) ;
#244=VERTEX_POINT('',#243) ;
#251=VERTEX_POINT('',#250) ;
#282=VERTEX_POINT('',#281) ;
#307=VERTEX_POINT('',#306) ;
#314=VERTEX_POINT('',#313) ;
#378=VERTEX_POINT('',#377) ;
#41=(LENGTH_UNIT()NAMED_UNIT(*)SI_UNIT(.MILLI.,.METRE.)) ;
#42=(NAMED_UNIT(*)PLANE_ANGLE_UNIT()SI_UNIT($,.RADIAN.)) ;
#43=(NAMED_UNIT(*)SI_UNIT($,.STERADIAN.)SOLID_ANGLE_UNIT()) ;
#45=(GEOMETRIC_REPRESENTATION_CONTEXT(3)GLOBAL_UNCERTAINTY_ASSIGNED_CONTEXT((#44))GLOBAL_UNIT_ASSIGNED_CONTEXT((#41,#42,#43))REPRESENTATION_CONTEXT(' ',' ')) ;
ENDSEC;
END-ISO-10303-21;
